ISO-10303-21;
HEADER;
FILE_DESCRIPTION (( 'STEP AP203' ),
    '1' );
FILE_NAME ('1.5 inch to 1 inch con red.STEP',
    '2025-07-30T09:22:53',
    ( '' ),
    ( '' ),
    'SwSTEP 2.0',
    'SolidWorks 2024',
    '' );
FILE_SCHEMA (( 'CONFIG_CONTROL_DESIGN' ));
ENDSEC;

DATA;
#1 = ORIENTED_EDGE ( 'NONE', *, *, #231, .T. ) ;
#2 = CARTESIAN_POINT ( 'NONE',  ( 0.000000000000000000, 0.000000000000000000, -17.40436688284108158 ) ) ;
#3 = CLOSED_SHELL ( 'NONE', ( #199, #145, #106, #128, #162, #56 ) ) ;
#4 = CC_DESIGN_APPROVAL ( #17, ( #136 ) ) ;
#5 = VERTEX_POINT ( 'NONE', #2 ) ;
#6 = CARTESIAN_POINT ( 'NONE',  ( 0.000000000000000000, 0.000000000000000000, 0.000000000000000000 ) ) ;
#7 = EDGE_CURVE ( 'NONE', #175, #58, #209, .T. ) ;
#8 = FACE_OUTER_BOUND ( 'NONE', #189, .T. ) ;
#9 = CONICAL_SURFACE ( 'NONE', #211, 12.69999999999999929, 0.2360463415154120115 ) ;
#10 = CARTESIAN_POINT ( 'NONE',  ( 1.555301434917138433E-15, 26.39999999999999858, 12.69999999999999929 ) ) ;
#11 = DIRECTION ( 'NONE',  ( 0.000000000000000000, 1.000000000000000000, 0.000000000000000000 ) ) ;
#12 = COORDINATED_UNIVERSAL_TIME_OFFSET ( 0, 0, .AHEAD. ) ;
#13 = DIRECTION ( 'NONE',  ( 0.000000000000000000, 0.000000000000000000, 1.000000000000000000 ) ) ;
#14 = DATE_TIME_ROLE ( 'creation_date' ) ;
#15 = COORDINATED_UNIVERSAL_TIME_OFFSET ( 0, 0, .AHEAD. ) ;
#16 = UNCERTAINTY_MEASURE_WITH_UNIT (LENGTH_MEASURE( 1.000000000000000082E-05 ), #169, 'distance_accuracy_value', 'NONE');
#17 = APPROVAL ( #153, 'UNSPECIFIED' ) ;
#18 = AXIS2_PLACEMENT_3D ( 'NONE', #85, #105, #216 ) ;
#19 = ORIENTED_EDGE ( 'NONE', *, *, #154, .F. ) ;
#20 = ORIENTED_EDGE ( 'NONE', *, *, #246, .T. ) ;
#21 = PERSON ( 'UNSPECIFIED', 'UNSPECIFIED', 'UNSPECIFIED', ('UNSPECIFIED'), ('UNSPECIFIED'), ('UNSPECIFIED') ) ;
#22 = AXIS2_PLACEMENT_3D ( 'NONE', #166, #11, #149 ) ;
#23 = VECTOR ( 'NONE', #233, 1000.000000000000114 ) ;
#24 = ORIENTED_EDGE ( 'NONE', *, *, #231, .F. ) ;
#25 = FACE_BOUND ( 'NONE', #100, .T. ) ;
#26 = PRODUCT_DEFINITION_SHAPE ( 'NONE', 'NONE',  #141 ) ;
#27 = FACE_OUTER_BOUND ( 'NONE', #81, .T. ) ;
#28 = CARTESIAN_POINT ( 'NONE',  ( 7.776507174585692163E-16, 26.39999999999999858, 12.69999999999999929 ) ) ;
#29 = CARTESIAN_POINT ( 'NONE',  ( 7.776507174585692163E-16, 26.39999999999999858, -12.69999999999999929 ) ) ;
#30 = DIRECTION ( 'NONE',  ( 0.000000000000000000, 0.000000000000000000, 1.000000000000000000 ) ) ;
#31 = CIRCLE ( 'NONE', #83, 19.05000000000000071 ) ;
#32 = APPROVAL_PERSON_ORGANIZATION ( #130, #210, #170 ) ;
#33 = FACE_OUTER_BOUND ( 'NONE', #229, .T. ) ;
#34 = CALENDAR_DATE ( 2025, 30, 7 ) ;
#35 = DIRECTION ( 'NONE',  ( 0.000000000000000000, 0.000000000000000000, 1.000000000000000000 ) ) ;
#36 =( NAMED_UNIT ( * ) SI_UNIT ( $, .STERADIAN. ) SOLID_ANGLE_UNIT ( ) );
#37 = DATE_AND_TIME ( #186, #118 ) ;
#38 = CC_DESIGN_PERSON_AND_ORGANIZATION_ASSIGNMENT ( #77, #54, ( #208 ) ) ;
#39 = APPROVAL_DATE_TIME ( #72, #17 ) ;
#40 = CONICAL_SURFACE ( 'NONE', #159, 12.69999999999999929, 0.2360463415154120115 ) ;
#41 = AXIS2_PLACEMENT_3D ( 'NONE', #110, #167, #70 ) ;
#42 = VERTEX_POINT ( 'NONE', #45 ) ;
#43 = EDGE_CURVE ( 'NONE', #97, #158, #192, .T. ) ;
#44 = ORIENTED_EDGE ( 'NONE', *, *, #157, .T. ) ;
#45 = CARTESIAN_POINT ( 'NONE',  ( 1.742594860696468229E-15, 26.39999999999999858, 11.05436688284108193 ) ) ;
#46 = CARTESIAN_POINT ( 'NONE',  ( 0.000000000000000000, 26.02582329600862465, 0.000000000000000000 ) ) ;
#47 = CC_DESIGN_SECURITY_CLASSIFICATION ( #136, ( #208 ) ) ;
#48 = DIRECTION ( 'NONE',  ( 0.000000000000000000, 0.000000000000000000, 1.000000000000000000 ) ) ;
#49 = DIRECTION ( 'NONE',  ( 0.000000000000000000, -0.000000000000000000, 1.000000000000000000 ) ) ;
#50 = CARTESIAN_POINT ( 'NONE',  ( 0.000000000000000000, 26.02582329600862465, -11.14436771883900867 ) ) ;
#51 = VECTOR ( 'NONE', #222, 1000.000000000000114 ) ;
#52 = LOCAL_TIME ( 10, 22, 53.00000000000000000, #172 ) ;
#53 = DIRECTION ( 'NONE',  ( 0.000000000000000000, 1.000000000000000000, 0.000000000000000000 ) ) ;
#54 = PERSON_AND_ORGANIZATION_ROLE ( 'creator' ) ;
#55 = CARTESIAN_POINT ( 'NONE',  ( 0.000000000000000000, 0.000000000000000000, 0.000000000000000000 ) ) ;
#56 = ADVANCED_FACE ( 'NONE', ( #161 ), #57, .F. ) ;
#57 = CONICAL_SURFACE ( 'NONE', #230, 11.14436771883900867, 0.2360463415154120115 ) ;
#58 = VERTEX_POINT ( 'NONE', #165 ) ;
#59 = CC_DESIGN_DATE_AND_TIME_ASSIGNMENT ( #111, #247, ( #136 ) ) ;
#60 = ORIENTED_EDGE ( 'NONE', *, *, #234, .F. ) ;
#61 = CC_DESIGN_APPROVAL ( #210, ( #141 ) ) ;
#62 = ORIENTED_EDGE ( 'NONE', *, *, #234, .T. ) ;
#63 = FACE_OUTER_BOUND ( 'NONE', #143, .T. ) ;
#64 = CARTESIAN_POINT ( 'NONE',  ( 0.000000000000000000, 0.000000000000000000, 0.000000000000000000 ) ) ;
#65 = DIRECTION ( 'NONE',  ( -0.000000000000000000, -1.000000000000000000, -0.000000000000000000 ) ) ;
#66 = DIRECTION ( 'NONE',  ( 0.000000000000000000, 1.000000000000000000, 0.000000000000000000 ) ) ;
#67 = DIRECTION ( 'NONE',  ( -0.000000000000000000, -1.000000000000000000, -0.000000000000000000 ) ) ;
#68 = EDGE_CURVE ( 'NONE', #158, #97, #102, .T. ) ;
#69 = ADVANCED_BREP_SHAPE_REPRESENTATION ( '1.5 inch to 1 inch con red', ( #78, #71 ), #212 ) ;
#70 = DIRECTION ( 'NONE',  ( 0.000000000000000000, 0.000000000000000000, -1.000000000000000000 ) ) ;
#71 = AXIS2_PLACEMENT_3D ( 'NONE', #55, #74, #150 ) ;
#72 = DATE_AND_TIME ( #241, #249 ) ;
#73 =( NAMED_UNIT ( * ) PLANE_ANGLE_UNIT ( ) SI_UNIT ( $, .RADIAN. ) );
#74 = DIRECTION ( 'NONE',  ( 0.000000000000000000, 0.000000000000000000, 1.000000000000000000 ) ) ;
#75 = COORDINATED_UNIVERSAL_TIME_OFFSET ( 0, 0, .AHEAD. ) ;
#76 = CALENDAR_DATE ( 2025, 30, 7 ) ;
#77 = PERSON_AND_ORGANIZATION ( #21, #139 ) ;
#78 = MANIFOLD_SOLID_BREP ( 'Shell1', #3 ) ;
#79 = AXIS2_PLACEMENT_3D ( 'NONE', #242, #53, #35 ) ;
#80 = CC_DESIGN_DATE_AND_TIME_ASSIGNMENT ( #113, #14, ( #141 ) ) ;
#81 = EDGE_LOOP ( 'NONE', ( #156, #62, #44, #163 ) ) ;
#82 = ORIENTED_EDGE ( 'NONE', *, *, #185, .F. ) ;
#83 = AXIS2_PLACEMENT_3D ( 'NONE', #6, #236, #198 ) ;
#84 = VECTOR ( 'NONE', #200, 1000.000000000000114 ) ;
#85 = CARTESIAN_POINT ( 'NONE',  ( 0.000000000000000000, 26.39999999999999858, 0.000000000000000000 ) ) ;
#86 = DIRECTION ( 'NONE',  ( 0.000000000000000000, 0.000000000000000000, -1.000000000000000000 ) ) ;
#87 = DIRECTION ( 'NONE',  ( 0.000000000000000000, -0.000000000000000000, 1.000000000000000000 ) ) ;
#88 = CIRCLE ( 'NONE', #121, 17.40436688284108513 ) ;
#89 = FACE_OUTER_BOUND ( 'NONE', #191, .T. ) ;
#90 = LINE ( 'NONE', #10, #51 ) ;
#91 = DIRECTION ( 'NONE',  ( 0.000000000000000000, 1.000000000000000000, 0.000000000000000000 ) ) ;
#92 = PERSON_AND_ORGANIZATION ( #21, #139 ) ;
#93 = CALENDAR_DATE ( 2025, 30, 7 ) ;
#94 = APPROVAL_ROLE ( '' ) ;
#95 = APPROVAL_STATUS ( 'not_yet_approved' ) ;
#96 = ORIENTED_EDGE ( 'NONE', *, *, #185, .T. ) ;
#97 = VERTEX_POINT ( 'NONE', #28 ) ;
#98 = CC_DESIGN_PERSON_AND_ORGANIZATION_ASSIGNMENT ( #134, #155, ( #174 ) ) ;
#99 = AXIS2_PLACEMENT_3D ( 'NONE', #214, #108, #48 ) ;
#100 = EDGE_LOOP ( 'NONE', ( #140, #24 ) ) ;
#101 = DIRECTION ( 'NONE',  ( 0.000000000000000000, 0.000000000000000000, -1.000000000000000000 ) ) ;
#102 = CIRCLE ( 'NONE', #99, 12.69999999999999929 ) ;
#103 = DIRECTION ( 'NONE',  ( -0.000000000000000000, -1.000000000000000000, -0.000000000000000000 ) ) ;
#104 = ORIENTED_EDGE ( 'NONE', *, *, #7, .T. ) ;
#105 = DIRECTION ( 'NONE',  ( 0.000000000000000000, 1.000000000000000000, 0.000000000000000000 ) ) ;
#106 = ADVANCED_FACE ( 'NONE', ( #25, #8 ), #124, .T. ) ;
#107 = VECTOR ( 'NONE', #181, 1000.000000000000114 ) ;
#108 = DIRECTION ( 'NONE',  ( 0.000000000000000000, 1.000000000000000000, 0.000000000000000000 ) ) ;
#109 = CC_DESIGN_APPROVAL ( #248, ( #208 ) ) ;
#110 = CARTESIAN_POINT ( 'NONE',  ( 0.000000000000000000, 26.02582329600862465, 0.000000000000000000 ) ) ;
#111 = DATE_AND_TIME ( #76, #197 ) ;
#112 = CARTESIAN_POINT ( 'NONE',  ( -1.166476076187854022E-15, 0.000000000000000000, -19.05000000000000071 ) ) ;
#113 = DATE_AND_TIME ( #34, #179 ) ;
#114 = MECHANICAL_CONTEXT ( 'NONE', #119, 'mechanical' ) ;
#115 = EDGE_CURVE ( 'NONE', #158, #175, #126, .T. ) ;
#116 = CIRCLE ( 'NONE', #79, 17.40436688284108513 ) ;
#117 = ORIENTED_EDGE ( 'NONE', *, *, #157, .F. ) ;
#118 = LOCAL_TIME ( 10, 22, 53.00000000000000000, #12 ) ;
#119 = APPLICATION_CONTEXT ( 'configuration controlled 3d designs of mechanical parts and assemblies' ) ;
#120 = APPLICATION_CONTEXT ( 'configuration controlled 3d designs of mechanical parts and assemblies' ) ;
#121 = AXIS2_PLACEMENT_3D ( 'NONE', #239, #151, #13 ) ;
#122 = ORIENTED_EDGE ( 'NONE', *, *, #154, .T. ) ;
#123 = APPROVAL_PERSON_ORGANIZATION ( #205, #17, #227 ) ;
#124 = PLANE ( 'NONE',  #135 ) ;
#125 = DIRECTION ( 'NONE',  ( 0.000000000000000000, 1.000000000000000000, 0.000000000000000000 ) ) ;
#126 = LINE ( 'NONE', #147, #23 ) ;
#127 = CARTESIAN_POINT ( 'NONE',  ( 0.000000000000000000, 26.39999999999999858, 0.000000000000000000 ) ) ;
#128 = ADVANCED_FACE ( 'NONE', ( #146, #63 ), #218, .F. ) ;
#129 = CARTESIAN_POINT ( 'NONE',  ( 1.364791425539728155E-15, 26.02582329600862465, 11.14436771883900867 ) ) ;
#130 = PERSON_AND_ORGANIZATION ( #21, #139 ) ;
#131 = CARTESIAN_POINT ( 'NONE',  ( 2.131420219425752837E-15, 0.000000000000000000, 17.40436688284108158 ) ) ;
#132 = APPLICATION_PROTOCOL_DEFINITION ( 'international standard', 'config_control_design', 1994, #119 ) ;
#133 = AXIS2_PLACEMENT_3D ( 'NONE', #64, #182, #30 ) ;
#134 = PERSON_AND_ORGANIZATION ( #21, #139 ) ;
#135 = AXIS2_PLACEMENT_3D ( 'NONE', #160, #66, #87 ) ;
#136 = SECURITY_CLASSIFICATION ( '', '', #152 ) ;
#137 = PERSON_AND_ORGANIZATION_ROLE ( 'creator' ) ;
#138 = ORIENTED_EDGE ( 'NONE', *, *, #7, .F. ) ;
#139 = ORGANIZATION ( 'UNSPECIFIED', 'UNSPECIFIED', '' ) ;
#140 = ORIENTED_EDGE ( 'NONE', *, *, #228, .F. ) ;
#141 = PRODUCT_DEFINITION ( 'UNKNOWN', '', #208, #188 ) ;
#142 = VERTEX_POINT ( 'NONE', #195 ) ;
#143 = EDGE_LOOP ( 'NONE', ( #138, #117 ) ) ;
#144 = CIRCLE ( 'NONE', #22, 11.05436688284108193 ) ;
#145 = ADVANCED_FACE ( 'NONE', ( #27 ), #9, .T. ) ;
#146 = FACE_BOUND ( 'NONE', #190, .T. ) ;
#147 = CARTESIAN_POINT ( 'NONE',  ( 0.000000000000000000, 26.39999999999999858, -12.69999999999999929 ) ) ;
#148 = DIRECTION ( 'NONE',  ( 0.000000000000000000, 0.000000000000000000, -1.000000000000000000 ) ) ;
#149 = DIRECTION ( 'NONE',  ( 0.000000000000000000, 0.000000000000000000, 1.000000000000000000 ) ) ;
#150 = DIRECTION ( 'NONE',  ( 1.000000000000000000, 0.000000000000000000, 0.000000000000000000 ) ) ;
#151 = DIRECTION ( 'NONE',  ( 0.000000000000000000, 1.000000000000000000, 0.000000000000000000 ) ) ;
#152 = SECURITY_CLASSIFICATION_LEVEL ( 'unclassified' ) ;
#153 = APPROVAL_STATUS ( 'not_yet_approved' ) ;
#154 = EDGE_CURVE ( 'NONE', #42, #215, #235, .T. ) ;
#155 = PERSON_AND_ORGANIZATION_ROLE ( 'design_owner' ) ;
#156 = ORIENTED_EDGE ( 'NONE', *, *, #43, .F. ) ;
#157 = EDGE_CURVE ( 'NONE', #58, #175, #31, .T. ) ;
#158 = VERTEX_POINT ( 'NONE', #29 ) ;
#159 = AXIS2_PLACEMENT_3D ( 'NONE', #220, #67, #148 ) ;
#160 = CARTESIAN_POINT ( 'NONE',  ( 0.000000000000000000, 26.39999999999999858, 0.000000000000000000 ) ) ;
#161 = FACE_OUTER_BOUND ( 'NONE', #194, .T. ) ;
#162 = ADVANCED_FACE ( 'NONE', ( #89 ), #40, .T. ) ;
#163 = ORIENTED_EDGE ( 'NONE', *, *, #115, .F. ) ;
#164 = CIRCLE ( 'NONE', #226, 11.05436688284108193 ) ;
#165 = CARTESIAN_POINT ( 'NONE',  ( 3.499428228563562065E-15, 0.000000000000000000, 19.05000000000000071 ) ) ;
#166 = CARTESIAN_POINT ( 'NONE',  ( 0.000000000000000000, 26.39999999999999858, 0.000000000000000000 ) ) ;
#167 = DIRECTION ( 'NONE',  ( -0.000000000000000000, -1.000000000000000000, -0.000000000000000000 ) ) ;
#168 = COORDINATED_UNIVERSAL_TIME_OFFSET ( 0, 0, .AHEAD. ) ;
#169 =( LENGTH_UNIT ( ) NAMED_UNIT ( * ) SI_UNIT ( .MILLI., .METRE. ) );
#170 = APPROVAL_ROLE ( '' ) ;
#171 = EDGE_CURVE ( 'NONE', #215, #5, #116, .T. ) ;
#172 = COORDINATED_UNIVERSAL_TIME_OFFSET ( 0, 0, .AHEAD. ) ;
#173 = APPROVAL_STATUS ( 'not_yet_approved' ) ;
#174 = PRODUCT ( '1.5 inch to 1 inch con red', '1.5 inch to 1 inch con red', '', ( #114 ) ) ;
#175 = VERTEX_POINT ( 'NONE', #112 ) ;
#176 = PRODUCT_RELATED_PRODUCT_CATEGORY ( 'detail', '', ( #174 ) ) ;
#177 = ORIENTED_EDGE ( 'NONE', *, *, #171, .F. ) ;
#178 = ORIENTED_EDGE ( 'NONE', *, *, #115, .T. ) ;
#179 = LOCAL_TIME ( 10, 22, 53.00000000000000000, #15 ) ;
#180 = ORIENTED_EDGE ( 'NONE', *, *, #228, .T. ) ;
#181 = DIRECTION ( 'NONE',  ( 2.863964392865900333E-17, -0.9722701757256198007, 0.2338604399946093704 ) ) ;
#182 = DIRECTION ( 'NONE',  ( 0.000000000000000000, 1.000000000000000000, 0.000000000000000000 ) ) ;
#183 = ORIENTED_EDGE ( 'NONE', *, *, #68, .F. ) ;
#184 = DIRECTION ( 'NONE',  ( 0.000000000000000000, 0.000000000000000000, 1.000000000000000000 ) ) ;
#185 = EDGE_CURVE ( 'NONE', #142, #5, #240, .T. ) ;
#186 = CALENDAR_DATE ( 2025, 30, 7 ) ;
#187 = APPROVAL_DATE_TIME ( #37, #210 ) ;
#188 = DESIGN_CONTEXT ( 'detailed design', #120, 'design' ) ;
#189 = EDGE_LOOP ( 'NONE', ( #206, #213 ) ) ;
#190 = EDGE_LOOP ( 'NONE', ( #20, #232 ) ) ;
#191 = EDGE_LOOP ( 'NONE', ( #60, #183, #178, #104 ) ) ;
#192 = CIRCLE ( 'NONE', #18, 12.69999999999999929 ) ;
#193 = CC_DESIGN_PERSON_AND_ORGANIZATION_ASSIGNMENT ( #221, #223, ( #136 ) ) ;
#194 = EDGE_LOOP ( 'NONE', ( #19, #1, #96, #177 ) ) ;
#195 = CARTESIAN_POINT ( 'NONE',  ( 0.000000000000000000, 26.39999999999999858, -11.05436688284108193 ) ) ;
#196 = CARTESIAN_POINT ( 'NONE',  ( 0.000000000000000000, 0.000000000000000000, 0.000000000000000000 ) ) ;
#197 = LOCAL_TIME ( 10, 22, 53.00000000000000000, #75 ) ;
#198 = DIRECTION ( 'NONE',  ( 0.000000000000000000, 0.000000000000000000, 1.000000000000000000 ) ) ;
#199 = ADVANCED_FACE ( 'NONE', ( #33 ), #217, .F. ) ;
#200 = DIRECTION ( 'NONE',  ( 0.000000000000000000, -0.9722701757256198007, -0.2338604399946093704 ) ) ;
#201 = PERSON_AND_ORGANIZATION ( #21, #139 ) ;
#202 = CARTESIAN_POINT ( 'NONE',  ( 0.000000000000000000, 26.39999999999999858, 0.000000000000000000 ) ) ;
#203 = APPLICATION_PROTOCOL_DEFINITION ( 'international standard', 'config_control_design', 1994, #120 ) ;
#204 = PERSON_AND_ORGANIZATION ( #21, #139 ) ;
#205 = PERSON_AND_ORGANIZATION ( #21, #139 ) ;
#206 = ORIENTED_EDGE ( 'NONE', *, *, #68, .T. ) ;
#207 = APPROVAL_PERSON_ORGANIZATION ( #204, #248, #94 ) ;
#208 = PRODUCT_DEFINITION_FORMATION_WITH_SPECIFIED_SOURCE ( 'ANY', '', #174, .NOT_KNOWN. ) ;
#209 = CIRCLE ( 'NONE', #133, 19.05000000000000071 ) ;
#210 = APPROVAL ( #173, 'UNSPECIFIED' ) ;
#211 = AXIS2_PLACEMENT_3D ( 'NONE', #127, #103, #86 ) ;
#212 =( GEOMETRIC_REPRESENTATION_CONTEXT ( 3 ) GLOBAL_UNCERTAINTY_ASSIGNED_CONTEXT ( ( #16 ) ) GLOBAL_UNIT_ASSIGNED_CONTEXT ( ( #169, #73, #36 ) ) REPRESENTATION_CONTEXT ( 'NONE', 'WORKASPACE' ) );
#213 = ORIENTED_EDGE ( 'NONE', *, *, #43, .T. ) ;
#214 = CARTESIAN_POINT ( 'NONE',  ( 0.000000000000000000, 26.39999999999999858, 0.000000000000000000 ) ) ;
#215 = VERTEX_POINT ( 'NONE', #131 ) ;
#216 = DIRECTION ( 'NONE',  ( 0.000000000000000000, 0.000000000000000000, 1.000000000000000000 ) ) ;
#217 = CONICAL_SURFACE ( 'NONE', #41, 11.14436771883900867, 0.2360463415154120115 ) ;
#218 = PLANE ( 'NONE',  #225 ) ;
#219 = CC_DESIGN_PERSON_AND_ORGANIZATION_ASSIGNMENT ( #201, #137, ( #141 ) ) ;
#220 = CARTESIAN_POINT ( 'NONE',  ( 0.000000000000000000, 26.39999999999999858, 0.000000000000000000 ) ) ;
#221 = PERSON_AND_ORGANIZATION ( #21, #139 ) ;
#222 = DIRECTION ( 'NONE',  ( 2.863964392865900333E-17, -0.9722701757256198007, 0.2338604399946093704 ) ) ;
#223 = PERSON_AND_ORGANIZATION_ROLE ( 'classification_officer' ) ;
#224 = SHAPE_DEFINITION_REPRESENTATION ( #26, #69 ) ;
#225 = AXIS2_PLACEMENT_3D ( 'NONE', #196, #125, #49 ) ;
#226 = AXIS2_PLACEMENT_3D ( 'NONE', #202, #91, #184 ) ;
#227 = APPROVAL_ROLE ( '' ) ;
#228 = EDGE_CURVE ( 'NONE', #142, #42, #144, .T. ) ;
#229 = EDGE_LOOP ( 'NONE', ( #180, #122, #238, #82 ) ) ;
#230 = AXIS2_PLACEMENT_3D ( 'NONE', #46, #65, #101 ) ;
#231 = EDGE_CURVE ( 'NONE', #42, #142, #164, .T. ) ;
#232 = ORIENTED_EDGE ( 'NONE', *, *, #171, .T. ) ;
#233 = DIRECTION ( 'NONE',  ( 0.000000000000000000, -0.9722701757256198007, -0.2338604399946093704 ) ) ;
#234 = EDGE_CURVE ( 'NONE', #97, #58, #90, .T. ) ;
#235 = LINE ( 'NONE', #129, #107 ) ;
#236 = DIRECTION ( 'NONE',  ( 0.000000000000000000, 1.000000000000000000, 0.000000000000000000 ) ) ;
#237 = CC_DESIGN_PERSON_AND_ORGANIZATION_ASSIGNMENT ( #92, #245, ( #208 ) ) ;
#238 = ORIENTED_EDGE ( 'NONE', *, *, #246, .F. ) ;
#239 = CARTESIAN_POINT ( 'NONE',  ( 0.000000000000000000, 0.000000000000000000, 0.000000000000000000 ) ) ;
#240 = LINE ( 'NONE', #50, #84 ) ;
#241 = CALENDAR_DATE ( 2025, 30, 7 ) ;
#242 = CARTESIAN_POINT ( 'NONE',  ( 0.000000000000000000, 0.000000000000000000, 0.000000000000000000 ) ) ;
#243 = DATE_AND_TIME ( #93, #52 ) ;
#244 = APPROVAL_DATE_TIME ( #243, #248 ) ;
#245 = PERSON_AND_ORGANIZATION_ROLE ( 'design_supplier' ) ;
#246 = EDGE_CURVE ( 'NONE', #5, #215, #88, .T. ) ;
#247 = DATE_TIME_ROLE ( 'classification_date' ) ;
#248 = APPROVAL ( #95, 'UNSPECIFIED' ) ;
#249 = LOCAL_TIME ( 10, 22, 53.00000000000000000, #168 ) ;
ENDSEC;
END-ISO-10303-21;
